Kangaroo Court by Capital Cities

(/) Slide Up  (\) Slide Down  (h) Hammer On  (p) Pull Off  (b) Bend (r) Release (v) Vibrato


E|-------------------------------------------------------|-----
B|-------------------------------------------------------|-----
G|-------------5--8--------------------------------------|-----
D|----6--6--6--------3--6--3--6--3--6--3--6--3--6--3--6--|-----
A|-------------------------------------------------------|-----
E|-------------------------------------------------------|-----



E|-----------------------------------------------------|--
B|-----------------------------------------------------|--
G|-----------5--8--------------------------------------|--
D|-----5--5-----------5-----5-----5-----5-----5-----5--|--
A|--6--------------6-----6-----6-----6-----6-----6-----|--
E|-----------------------------------------------------|--
http://www.guitartabcreator.com
Guitar Tab Creator is intended to store guitar tab created through the tool. It currently does not support in-line text editing. Any text you place in here will be lost. If you need to comment on your tab, please use the "Tab Notes" section located below.