Mê de sua mão - Parte final do solo

(/) Slide Up  (\) Slide Down  (h) Hammer On  (p) Pull Off  (b) Bend (r) Release (v) Vibrato


E|--13--10------------------------------------------13--10------------------------------------------
B|----------13--10----------13--10--------------------------13--10----------13--10------------------
G|------------------12--10----------12--10--------------------------12--10----------12--10----------
D|------------------------------------------12--10------------------------------------------12--10--
A|--------------------------------------------------------------------------------------------------
E|--------------------------------------------------------------------------------------------------



E|-13-10----------------------------------------------------------------------
B|-------13-10-------13-10----------------------------------------------------
G|-------------12-10-------12-10-------12-10----------------------------------
D|-------------------------------12-10-------12-10-------12-10-------------12-
A|-------------------------------------------------12-10-------12-10----------
E|-------------------------------------------------------------------13-10----
http://www.guitartabcreator.com
Guitar Tab Creator is intended to store guitar tab created through the tool. It currently does not support in-line text editing. Any text you place in here will be lost. If you need to comment on your tab, please use the "Tab Notes" section located below.