Electric Feel cover by Gabrielle Aplin

(/) Slide Up  (\) Slide Down  (h) Hammer On  (p) Pull Off  (b) Bend (r) Release (v) Vibrato


E|----------|-------------|-----|-----------------------|-----|--
B|--0h1-----|-------------|-----|-----------------------|-----|--
G|-------0--|--0--0----2--|--2--|----------0----0----2--|--2--|--
D|----------|-------------|-----|-----0h2---------------|-----|--
A|--0-------|-------------|-----|-----------------------|-----|--
E|----------|-----0----1--|-----|--3------------0----1--|-----|--



E|----------|-------------|-----|-----------------------------|--
B|--0h1-----|-------------|-----|-----------------------------|--
G|-------0--|--0--0----2--|--2--|----------0----0----2--------|--
D|----------|-------------|-----|-----0h2---------------------|--
A|--0-------|-------------|-----|-----------------------------|--
E|----------|-----0----1--|-----|--3------------0----1--------|--
http://www.guitartabcreator.com
Guitar Tab Creator is intended to store guitar tab created through the tool. It currently does not support in-line text editing. Any text you place in here will be lost. If you need to comment on your tab, please use the "Tab Notes" section located below.