3 Doors Down - Here Without You (Boyce Avenue acoustic cover)

(/) Slide Up  (\) Slide Down  (h) Hammer On  (p) Pull Off  (b) Bend (r) Release (v) Vibrato

E|--------------------------------------------------------------------------------------------
B|-----------3--------2--------2-----3-----------------------------------------2--------------
G|--------4-----4--------4--------4-----4-----------------0--------------2--------2-----------
D|-----4-----------4--------4--------------4-----------0-----0--------2-----2--------2--------
A|--2-----------------------------------------0-----2--------------0--------------------0-----
E|-----------------------------------------------3--------------3-----------------------------



E|-------------------------------------------------------------------------------------
B|-----------3--------2--------2-----3--------------------2--------3--------2-----3/5--
G|--------4-----4--------4--------4-----4-----------2--------2--------2--------2-------
D|-----4-----------4--------4--------------4-----2-----2--------2--------2-------------
A|--2-----------------------------------------0----------------------------------------
E|-------------------------------------------------------------------------------------
http://www.guitartabcreator.com
Guitar Tab Creator is intended to store guitar tab created through the tool. It currently does not support in-line text editing. Any text you place in here will be lost. If you need to comment on your tab, please use the "Tab Notes" section located below.