Nummer1

(/) Slide Up  (\) Slide Down  (h) Hammer On  (p) Pull Off  (b) Bend (r) Release (v) Vibrato


E|---------------|-------------------|-----------------------|-----------------------------|-
B|---------------|-------------------|-----------------------|-----------------------------|-
G|-5-5-5---------|-------------------|-6-6-6-5-5-5-5-5-5-5-5-|-5-5-5-5-5-5-8-8-8-8-8-8-8-8-|-
D|---------------|-------------------|-----------------------|-----------------------------|-
A|-------3-3-3-3-|-3h4-3-4-3---3-4-3-|-4-4-4-3-3-3-3-3-3-3-3-|-3-3-3-3-3-3-6-6-6-6-6-6-6-6-|-
E|---------------|-----------6-------|-----------------------|-----------------------------|-



E|-------------------------------------|-----------------------------|-
B|-------------------------------------|-----------------------------|-
G|-5-5-5-5-5-5-10-10-10-10-10-10-10-10-|-5-5-5-5-5-5-6-5-6-5---------|-
D|-------------------------------------|-------------6-5-6-5---------|-
A|-3-3-3-3-3-3-8--8--8--8--8--8--8--8--|-3-3-3-3-3-3-4-3-4-3---3-4-3-|-
E|-------------------------------------|---------------------6-------|-
http://www.guitartabcreator.com
Guitar Tab Creator is intended to store guitar tab created through the tool. It currently does not support in-line text editing. Any text you place in here will be lost. If you need to comment on your tab, please use the "Tab Notes" section located below.