Ace of Clubs

(/) Slide Up  (\) Slide Down  (h) Hammer On  (p) Pull Off  (b) Bend (r) Release (v) Vibrato


E|--------------------------------------------
B|--------------------------------------------
G|--------------------------------------------
D|--------------------------7-----------------
A|--------8-----5-----8-----------8-----7--8--
E|--0--0-----0-----0-----0-----0-----0--------



E|--------------------------------------------
B|--------------------------------------------
G|--------------------------------------------
D|--------------------------7-----------------
A|--------8-----5-----8-----------8-----4--5--
E|--0--0-----0-----0-----0-----0-----0--------



E|-------------------------------------------------|---
B|-------------------------------------------------|---
G|-------------------------------------------------|---
D|-----7---7-------7---7---------------------------|---
A|-----------8-----------8-----4---4-5-----4---4-5-|---
E|-0-0---0-----0-0---0-----0-0---0-----0-0---0-----|---



E|-------------------------------------------------
B|-------------------------------------------------
G|-----------------------------7---7-------7---7---
D|-----8---8-5-----8---8-5-----------8-----------8-
A|-0-0---0-----0-0---0-----0-0---0-----0-0---0-----
E|-------------------------------------------------



E|-------------------------------------------------
B|-------------------------------------------------
G|-------------------------------------------------
D|-----4---4-5-----4---4-5-----5---5-7-----5---5-7-
A|-0-0---0-----0-0---0-----0-0---0-----0-0---0-----
E|-------------------------------------------------



E|---------------------------|-
B|---------------------------|-
G|---------------------------|-
D|---------------------------|-
A|---------------------------|-
E|-0-0-0-0---0-0-0-0---0-0-0-|-



E|-----------------------------
B|-----------------------------
G|-----------------------------
D|-----------------------------
A|-----------------------------
E|-0-0-0-0-0-0-0-0-0-0-0-0-0-0-



E|-------------------------|-
B|-------------------------|-
G|-------------------------|-
D|-------------------------|-
A|-------------------------|-
E|-0-0-0-0---0-0-0-0---0-0-|-



E|-----------------------------------------------------------------------------
B|-----------------------------------------------------------------------------
G|-----------------------------------------------------------------------------
D|-----------------------------------------------------------------------------
A|-------------------------------------------------------------3-3-3-3-3-3-3-3-
E|-0-0-0-0---0-0-0-0---0-0-0---3-3-3-3-3-3-3-3-6-6-6-6-6-6-6-6-----------------
http://www.guitartabcreator.com
Guitar Tab Creator is intended to store guitar tab created through the tool. It currently does not support in-line text editing. Any text you place in here will be lost. If you need to comment on your tab, please use the "Tab Notes" section located below.