Michael Bublé - Cry me a river

(/) Slide Up  (\) Slide Down  (h) Hammer On  (p) Pull Off  (b) Bend (r) Release (v) Vibrato

E|-----------------------------------------------------------
B|-----------------------------------------------------------
G|--------------------------3--3-----------------------------
D|--0--0--2--3--0--0--2--3--------0--2--3-----2--3-----2--0--
A|-----------------------------1-----------0--------0--------
E|-----------------------------------------------------------



E|-----------------------------------------------------------
B|-----------------------------------------------------------
G|-----------------------------------------------------------
D|--0--0--2--3--0--0--2--3--------0--2--3-----2--3-----2-----
A|--------------------------1--1-----------1--------1--------
E|-----------------------------------------------------------



E|--------------------------------------------------------
B|--------------------------------------------------------
G|--------------------------------------------------------
D|--0--0--2--3--0--0--2--3--------0--2--3-----2--3-----2--
A|--------------------------1--1-----------1--------1-----
E|--------------------------------------------------------



E|--------------------------------------------------------
B|--------------------------------------------------------
G|--------------------------------------------------------
D|--0--0--2--3--0--0--2--3--------0--2--3-----2--3-----2--
A|--------------------------1--1-----------0--------0-----
E|--------------------------------------------------------



E|--0-----------------------------------
B|-----3--------------------3--1--3-----
G|--------2--------------------------2--
D|-----------3--2--0--0--3--------------
A|--------------------------------------
E|--------------------------------------



E|-----------------------------------------------------------------
B|-----------3--4--3--4--3-----------------------------------------
G|--2--1--2-----------------2--0-----0--2-----------2--0-----------
D|--------------------------------3-----------0--3--------3--2--0--
A|-----------------------------------------0-----------------------
E|-----------------------------------------------------------------
http://www.guitartabcreator.com
Guitar Tab Creator is intended to store guitar tab created through the tool. It currently does not support in-line text editing. Any text you place in here will be lost. If you need to comment on your tab, please use the "Tab Notes" section located below.