Hurt - Christina Aguilera

(/) Slide Up  (\) Slide Down  (h) Hammer On  (p) Pull Off  (b) Bend (r) Release (v) Vibrato


E|--------------------------------------------------
B|--8-----------8-----------7-----------7-----------
G|--------9-----------9-----------8-----------8-----
D|-----9-----9-----9-----9-----9-----9-----9-----9--
A|--7-----------------------6-----------------------
E|--------------------------------------------------



E|------------------------------------------------
B|--8-----------8-----------10-----8-----7-----8--
G|--------9-----------9---------0-----0-----0-----
D|-----9-----9-----9-----9------------------------
A|--7---------------------------------------------
E|--------------------------8---------------------



E|--
B|--
G|--
D|--
A|--
E|--
http://www.guitartabcreator.com
Guitar Tab Creator is intended to store guitar tab created through the tool. It currently does not support in-line text editing. Any text you place in here will be lost. If you need to comment on your tab, please use the "Tab Notes" section located below.