Harry Potter Theme Song

(/) Slide Up  (\) Slide Down  (h) Hammer On  (p) Pull Off  (b) Bend (r) Release (v) Vibrato
E|-----0--3--2--0--7--5--2--0--3--2-----1--------
B|--0--------------------------------4-----0--0--
G|-----------------------------------------------
D|-----------------------------------------------
A|-----------------------------------------------
E|-----------------------------------------------



E|-----0--3--2--0--7--10--9--8--4--8--7--6-----3--0--
B|--0------------------------------------------------
G|------------------------------------------2--------
D|---------------------------------------------------
A|---------------------------------------------------
E|---------------------------------------------------



E|--3--7--3--7--3--8--7--6--2--3--7--6-----------7--
B|-----5-----5-----5-----7-----5--------------0--8--
G|-----------------------------------------3--------
D|--------------------------------------4--4--------
A|--------------------------------------------------
E|--------------------------------------------------



E|--7--7--3--7--3--10--9--8--4--8--7--6-----3--0--
B|--5--5-----5-----8------6-----5-----------------
G|-----------------7------5-----4--------2--------
D|------------------------------------------------
A|------------------------------------------------
E|------------------------------------------------



E|--
B|--
G|--
D|--
A|--
E|--
http://www.guitartabcreator.com
http://www.4shared.com/all-images/elT3fCxb/Sheet_Music.html?&firstFileToShow=200
Guitar Tab Creator is intended to store guitar tab created through the tool. It currently does not support in-line text editing. Any text you place in here will be lost. If you need to comment on your tab, please use the "Tab Notes" section located below.