song idea 1

(/) Slide Up  (\) Slide Down  (h) Hammer On  (p) Pull Off  (b) Bend (r) Release (v) Vibrato

E|----------------------------------------------------------------------------
B|----------------------------------------------------------------------------
G|---------0-------------11-------------11-------------10-------------10------
D|-----11-----11-----11------11-----11------11-----11------11-----11------11--
A|--9-------------9--------------9--------------9--------------9--------------
E|----------------------------------------------------------------------------



E|--------------------------------------------------
B|--------------------------------------------------
G|--------9-----------9-----------8-----------8-----
D|-----9-----9-----9-----9-----9-----9-----9-----9--
A|--7-----------7-----------7-----------7-----------
E|--------------------------------------------------



E|--------------------------------------------------
B|--------------------------------------------------
G|--------7-----------7-----------6-----------6-----
D|-----7-----7-----7-----7-----7-----7-----7-----7--
A|--5-----------5-----------5-----------5-----------
E|--------------------------------------------------



E|--------------------------------------------------
B|--------------------------------------------------
G|--------5-----------5-----------4-----------4-----
D|-----5-----5-----5-----5-----5-----5-----5-----5--
A|--3-----------3-----------3-----------3-----------
E|--------------------------------------------------



E|--------------------------------------------------
B|--------------------------------------------------
G|--------3-----------3-----------2-----------2-----
D|-----3-----3-----3-----3-----3-----3-----3-----3--
A|--1-----------1-----------1-----------1-----------
E|--------------------------------------------------



E|------------------------------------------------------------------
B|------------------------------------------------------------------
G|--2\15--------15-----------12-----------9-----------7-----------5b
D|-----------0------0-----0------0-----0-----0-----0-----0-----0----
A|--------0------------0------------0-----------0-----------0-------
E|------------------------------------------------------------------
http://www.guitartabcreator.com
Guitar Tab Creator is intended to store guitar tab created through the tool. It currently does not support in-line text editing. Any text you place in here will be lost. If you need to comment on your tab, please use the "Tab Notes" section located below.