Holocene by Bon Iver

Intro/Verses

E|--------3---0--0--|
B|----1-----1-------|
G|------0-----------| x2
D|------------------|
A|--3---------------|
E|------------------|

E|--------3--|
B|----1------|
G|------0----|
D|-----------|
A|--0--------|
E|-----------|

E|--------3---0--0--|
B|----1-----1-------|
G|------0-----------| x4
D|------------------|
A|------------------|
E|--3---------------|

E|--------3---0--0--|
B|----1-----1-------|
G|------0-----------|
D|------------------|
A|--0---------------|
E|------------------|

E|--------3---0--0--|
B|----1-----1-------|
G|------0-----------| x4
D|------------------|
A|------------------|
E|--3---------------|

Repeat

Chorus

E|---0--3--0--0--0--3--0--0---0--3--0--0--0--3--0--0--|
B|--1--1--5--5--1--1--5--5---1--1--5--5--1--1--5--5---|
G|----------------------------------------------------| x2
D|----------------------------------------------------|
A|----------------------------------------------------|
E|----------------------------------------------------|

E|--------3---0--0--|
B|----1-----1-------|
G|------0-----------| x2
D|------------------|
A|--0---------------|
E|------------------|

E|--------3---0--0--|
B|----1-----1-------|
G|------0-----------| x4
D|------------------|
A|------------------|
E|--3---------------|

E|--------3---0--0--|
B|----1-----1-------|
G|------0-----------| x4
D|------------------|
A|------------------|
E|--1---------------|

E|--------3---0--0--|
B|----1-----1-------|
G|------0-----------|
D|------------------|
A|--0---------------|
E|------------------|

E|--------3---0--0--|
B|----1-----1-------|
G|------0-----------| x4
D|------------------|
A|------------------|
E|--3---------------|

E|--------3---0--0--------3---0--0--------3---0--0--| |------3---0--0--|
B|----1-----1---------1-----1---------1-----1-------| |--1-----1-------|
G|------0---------------0---------------0-----------| |----0-----------| x4
D|--------------------------------------------------| |----------------|
A|------------------0---------------3---------------| |----------------|
E|--1-----------------------------------------------| |3---------------|

E|--------3--------3--------3--------3---0--0--x--|
B|----1--------1--------1--------1-----1-------1--|
G|------0--------0--------1--------1-----------0--|
D|---------------------------------------------2--|
A|--0---------------------------3--------------x--|
E|-----------1--------3------------------------x--|
Guitar Tab Creator is intended to store guitar tab created through the tool. It currently does not support in-line text editing. Any text you place in here will be lost. If you need to comment on your tab, please use the "Tab Notes" section located below.