Bang

(/) Slide Up  (\) Slide Down  (h) Hammer On  (p) Pull Off  (b) Bend (r) Release (v) Vibrato

Verse Chords
|--2-2-2-2-2-2-2-2-5-5-5-5-5-5-5-5-3-3-3-3-3-3-3-3-0-0-0-0-0-0-0-0
|--3-3-3-3-3-3-3-3-5-5-5-5-5-5-5-5-3-3-3-3-3-3-3-3-2-2-2-2-2-2-2-2
|--2-2-2-2-2-2-2-2-6-6-6-6-6-6-6-6-4-4-4-4-4-4-4-4-2-2-2-2-2-2-2-2
|------------------7-7-7-7-7-7-7-7-5-5-5-5-5-5-5-5--------------
|---------------------------------------------------------------
|---------------------------------------------------------------


Interlude part in between verses
|--2-2-2-2-2-2-2-2----------------------------------------------
|--3-3-3-3-3-3-3-3-2-2-2-2-2-2-2-2------------------------------
|--2-2-2-2-2-2-2-2-2-2-2-2-2-2-2-2------------------------------
|------------------2-2-2-2-2-2-2-2------------------------------
|------------------0-0-0-0-0-0-0-0------------------------------
|---------------------------------------------------------------




End Lead
E|--14------14------14------14------12------12------12------12--
B|------15------15------15------15------14------14------14----14
G|--------------------------------------------------------------
D|--------------------------------------------------------------
A|--------------------------------------------------------------
E|--------------------------------------------------------------

E|--10------10------10------10------9------9------9------9------
B|------12------12------12------12-----10-----10-----10-----10--
G|--------------------------------------------------------------
D|--------------------------------------------------------------
A|--------------------------------------------------------------
E|--------------------------------------------------------------
http://www.guitartabcreator.com
Guitar Tab Creator is intended to store guitar tab created through the tool. It currently does not support in-line text editing. Any text you place in here will be lost. If you need to comment on your tab, please use the "Tab Notes" section located below.