Stairway to Heaven

(/) Slide Up  (\) Slide Down  (h) Hammer On  (p) Pull Off  (b) Bend (r) Release (v) Vibrato


E|-----------5--7--------7--8--------8--2--------2--
B|--------5--------5-----------5-----------3--------
G|-----5--------------5-----------5-----------2-----
D|--7-----------6-----------5-----------4-----------
A|--------------------------------------------------
E|--------------------------------------------------



E|--0-----------0----------------------------
B|-----1-----1-----1-----0--1--1-------------
G|--------2-----------2--0--2--2--2----------
D|--3----------------------------------------
A|-----------------------2--0--0--0--0/8--7--
E|-------------------------------------------
http://www.guitartabcreator.com
Guitar Tab Creator is intended to store guitar tab created through the tool. It currently does not support in-line text editing. Any text you place in here will be lost. If you need to comment on your tab, please use the "Tab Notes" section located below.