One Thing Remains-D

(/) Slide Up  (\) Slide Down  (h) Hammer On  (p) Pull Off  (b) Bend (r) Release (v) Vibrato

Verse (Repeat Multiple Times)

E|--------------------------------------------------
B|--------3-----------3-----------3-----------3-----
G|-----------0-----2-----2-----------2-----------2--
D|-----0--------0--------------2-----------2--------
A|--------------------------0-----------0-----------
E|--3-----------------------------------------------

Chorus (Repeat Multiple Times)

E|--------------------------------------------------
B|--------3-----------3-----------3-----------3-----
G|-----------2-----------0-----2-----2-----------2--
D|-----0-----------0--------0--------------2--------
A|--2-----------------------------------0-----------
E|--------------3-----------------------------------

Verse 2 (Play in 16th note values for each chord; progression is G D A)

E|-------------
B|-------------
G|--12--7--14--
D|-------------
A|--10--5--12--
E|-------------
http://www.guitartabcreator.com
Guitar Tab Creator is intended to store guitar tab created through the tool. It currently does not support in-line text editing. Any text you place in here will be lost. If you need to comment on your tab, please use the "Tab Notes" section located below.