Hosanna - Hillsong United

(/) Slide Up  (\) Slide Down  (h) Hammer On  (p) Pull Off  (b) Bend (r) Release (v) Vibrato

INTRO

E|--------4----------4----------------------
B|-----5--------5h7-----------4----------4--
G|--6--------6-------------4--------4h6-----
D|----------------------6--------6----------
A|------------------------------------------
E|------------------------------------------



E|----------------------------------------
B|--------5-----5-----------4----------4--
G|-----6-----------6-----4--------4h6-----
D|--7--------7--------6--------6----------
A|----------------------------------------
E|----------------------------------------



E|--------4----------4----------------------
B|-----5--------5h7-----------4----------4--
G|--6--------6-------------4--------4h6-----
D|----------------------6--------6----------
A|------------------------------------------
E|------------------------------------------



E|--------------------------------9-----12--
B|--------5-----5-----------7--------7--9---
G|-----6-----------6-----8--------------9---
D|--7--------7--------9--------9------------
A|------------------------------------------
E|------------------------------------------

VERSE (X2)

E|-----12--------12--------12--------12-----------4-----4-----------4-----4-----
B|---------9---------9---------9---------9-----5-----------5-----5-----------5--
G|--9---------9---------9---------9---------6--------6--------6--------6--------
D|------------------------------------------------------------------------------
A|------------------------------------------------------------------------------
E|------------------------------------------------------------------------------



E|--------------------
B|--------2--4--------
G|-----2--------4-----
D|--4--------------4--
A|--------------------
E|--------------------

CHORUS

E|--------0--------0-----------0--------0-----------0-----------0-----------0-----------0-----
B|-----0--------0-----0-----0--------0-----0-----0-----0-----0-----0-----0-----0-----0-----0--
G|--------------------------------------------------------------------------------------------
D|--------------------------------------------------------------------------------------------
A|-----------0-----------2--------4-----------0-----------4-----------2-----------2-----------
E|--4-----------------------------------------------------------------------------------------



E|--------0--------0-----------0--------0-----------0-----------0-----------4--------4--------
B|-----0--------0-----0-----0--------0-----0-----0-----0-----0-----0-----5-----5--------5-----
G|--------------------------------------------------------------------6-----------6--------6--
D|--------------------------------------------------------------------------------------------
A|-----------0-----------2--------4-----------0-----------2-----------------------------------
E|--4-----------------------------------------------------------------------------------------



E|--7--------7--------7-----12--------
B|-----5--------5--------5--9---------
G|--------7--------7--------9---------
D|------------------------------------
A|------------------------------------
E|------------------------------------

GUITAR SOLO

E|------------------------------------------------------------------------------
B|--12--12--12--12--12--12--12--9------9--12--12--12--12--12--12--12--9------9--
G|---------------------------------11------------------------------------11-----
D|------------------------------------------------------------------------------
A|------------------------------------------------------------------------------
E|------------------------------------------------------------------------------



E|------------------------------------------------------------------------------
B|--9h10--10--10--10--9-------------------------12--12--12b14--12b14--9------9--
G|-----------------------11--9--8--8--8--9--11---------------------------11-----
D|------------------------------------------------------------------------------
A|------------------------------------------------------------------------------
E|------------------------------------------------------------------------------



E|------------------------------------------11------11------11--12/14--
B|--12--12--12b14--12b14--9------9--10--10------10------10-------------
G|---------------------------11----------------------------------------
D|---------------------------------------------------------------------
A|---------------------------------------------------------------------
E|---------------------------------------------------------------------
http://www.guitartabcreator.com
Guitar Tab Creator is intended to store guitar tab created through the tool. It currently does not support in-line text editing. Any text you place in here will be lost. If you need to comment on your tab, please use the "Tab Notes" section located below.