3 String Chord Voicings - Electric Guitar Key of A - Our God

(/) Slide Up  (\) Slide Down  (h) Hammer On  (p) Pull Off  (b) Bend (r) Release (v) Vibrato


E|------
B|--10--
G|--9---
D|--7---
A|------
E|------



E|------
B|--10--
G|--7---
D|--7---
A|------
E|------



E|------
B|--12--
G|--9---
D|--9---
A|------
E|------



E|-----
B|--7--
G|--6--
D|--4--
A|-----
E|-----



E|------------------------------------------------------------------------------------------
B|--7--7--7--7--7--7--7--7--10--10--10--10--10--10--10--10--10--10--10--10--10--10--10--10--
G|--6--6--6--6--6--6--6--6--7---7---7---7---7---7---7---7---9---9---9---9---9---9---9---9---
D|--4--4--4--4--4--4--4--4--7---7---7---7---7---7---7---7---7---7---7---7---7---7---7---7---
A|------------------------------------------------------------------------------------------
E|------------------------------------------------------------------------------------------



E|----------------------------------
B|--12--12--12--12--12--12--12--12--
G|--9---9---9---9---9---9---9---9---
D|--9---9---9---9---9---9---9---9---
A|----------------------------------
E|----------------------------------
http://www.guitartabcreator.com
Guitar Tab Creator is intended to store guitar tab created through the tool. It currently does not support in-line text editing. Any text you place in here will be lost. If you need to comment on your tab, please use the "Tab Notes" section located below.