2nd Position Chords

(/) Slide Up  (\) Slide Down  (h) Hammer On  (p) Pull Off  (b) Bend (r) Release (v) Vibrato


E|--0--1--2--3--4--5--6--7--8---9---10--11--12--
B|--0--1--2--3--4--5--6--7--8---9---10--11--12--
G|--1--2--3--4--5--6--7--8--9---10--11--12--13--
D|--2--3--4--5--6--7--8--9--10--11--12--13--14--
A|--2--3--4--5--6--7--8--9--10--11--12--13--14--
E|--0--1--2--3--4--5--6--7--8---9---10--11--12--



E|----0--1--2--3--4--5--6--7--8---9---10--11--12--
B|----2--1--2--3--4--5--6--7--8---9---10--11--12--
G|----2--3--4--5--6--7--8--9--10--11--12--13--14--
D|----2--3--4--5--6--7--8--9--10--11--12--13--14--
A|----0--1--2--3--4--5--6--7--8---9---10--11--12--
E|------------------------------------------------



E|--0--1--2--3--4--5--6--7--8---9---10--11--12--
B|--0--1--2--3--4--5--6--7--8---9---10--11--12--
G|--0--1--2--3--4--5--6--7--8---9---10--11--12--
D|--2--3--4--5--6--7--8--9--10--11--12--13--14--
A|--2--3--4--5--6--7--8--9--10--11--12--13--14--
E|--0--1--2--3--4--5--6--7--8---9---10--11--12--



E|--0--1--2--3--4--5--6--7--8---9---10--11--12--
B|--1--2--3--4--5--6--7--8--9---10--11--12--13--
G|--2--3--4--5--6--7--8--9--10--11--12--13--14--
D|--2--3--4--5--6--7--8--9--10--11--12--13--14--
A|--0--1--2--3--4--5--6--7--8---9---10--11--12--
E|----------------------------------------------
http://www.guitartabcreator.com
Guitar Tab Creator is intended to store guitar tab created through the tool. It currently does not support in-line text editing. Any text you place in here will be lost. If you need to comment on your tab, please use the "Tab Notes" section located below.