New song

(/) Slide Up  (\) Slide Down  (h) Hammer On  (p) Pull Off  (b) Bend (r) Release (v) Vibrato

E|-----------3-------------2h3p2--0----------------------------------|-----------3-------------2h3/5-----
B|--------3-------------3-----------------------1--1--1--1--1--1--1--|--------3-------------3------------
G|-----0-------------2-----------------------3-----3--3--3--3--3--3--|-----0-------------2---------------
D|----------------0-----------------------3--------3--3--3--3--3--3--|----------------0------------------
A|-------------------------------------0-----------------------------|-----------------------------------
E|--3----------------------------------------------------------------|--3--------------------------------



E|--------------
B|-----------5--
G|--------6-----
D|-----7--------
A|--7-----------
E|--------------
http://www.guitartabcreator.com
Guitar Tab Creator is intended to store guitar tab created through the tool. It currently does not support in-line text editing. Any text you place in here will be lost. If you need to comment on your tab, please use the "Tab Notes" section located below.