Infinito Dios

(/) Slide Up  (b) Bend

Intro

E|---------------------------------------------------
B|---------------------------------------------------
G|---------------------------------------------------
D|---2-3-5-2-3-3-2-0---0-2-3-3-2-0---0-2-3-3-2-0---5-
A|-3-----------------3-------------3-------------3---
E|---------------------------------------------------


Pre Chorus

E|------------------------------------------------------
B|-8-10-8-10-12-13-12-8-10-8-10-12-13-13-15-15-13-12-13-
G|------------------------------------------------------
D|------------------------------------------------------
A|------------------------------------------------------
E|------------------------------------------------------


Chorus

E|------------------------------------------------------------------------------------
B|-13-13-15-15-17-17----------(/)15-15-17-17-------(/)15-15-17-17------12-13-15-13(b)-
G|-------------------12-14(b)-------------12-14(b)---------------12-14----------------
D|------------------------------------------------------------------------------------ X2
A|------------------------------------------------------------------------------------
E|------------------------------------------------------------------------------------
http://www.guitartabcreator.com
Guitar Tab Creator is intended to store guitar tab created through the tool. It currently does not support in-line text editing. Any text you place in here will be lost. If you need to comment on your tab, please use the "Tab Notes" section located below.