Rush-2112

(/) Slide Up  (\) Slide Down  (h) Hammer On  (p) Pull Off  (b) Bend (r) Release (v) Vibrato

E|----------------------------2-----------------------------------------------------------------------
B|-------2------------2-------3---------5------------2---2---2----------------2------5----------------
G|---1---2------------2---1---2---------5------------2---2---2------------1---2------5---4------------
D|---2---2------------2---2---0---------5------------2---2---2------------2---2------5---5------------
A|---2---0------------0---2-------------3------------0---0---0------------2---0------3---5------------
E|---0--------------------0-----------------------------------------------0--------------3------------



E|-----------------------------------------------------------------------------------------------
B|-------2------------5-------7---5-------7----------------2------------5--------------------2---
G|---1---2------------5---4---7---5---4---7------------1---2------------5---4------------1---2---
D|---2---2------------5---5---7---5---5---7------------2---2------------5---5------------2---2---
A|---2---0------------3---5---5---3---5---5------------2---0------------3---5------------2---0---
E|---0--------------------3-----------3----------------0--------------------3------------0-------



E|------------------------------------------------------------------------------------------------
B|---5-------7----------------2------------5--------------------2------5---7------5-------7---5---
G|---5---4---7------------1---2------------5---4------------1---2------5---7------5---4---7---5---
D|---5---5---7------------2---2------------5---5------------2---2------5---7------5---5---7---5---
A|---3---5---5------------2---0------------3---5------------2---0------3---5------3---5---5---3---
E|-------3----------------0--------------------3------------0-------------------------3-----------



E|--------------15---14---12---15-----------------------------------------------------------------
B|-------7--------------------------15----------------------------------------15------------------
G|---4---7-------------------------------14--------------------17--------17-----------------------
D|---5---7------------------------------------12--------------------17-------------19-------------
A|---5---5------------------------------------------------------------------------------19--------
E|---3---------------------------------------------------------------------------------------17---



E|---
B|---
G|---
D|---
A|---
E|---
http://www.guitartabcreator.com
Guitar Tab Creator is intended to store guitar tab created through the tool. It currently does not support in-line text editing. Any text you place in here will be lost. If you need to comment on your tab, please use the "Tab Notes" section located below.