Lead

(/) Slide Up  (\) Slide Down  (h) Hammer On  (p) Pull Off  (b) Bend (r) Release (v) Vibrato


E|--------------------------------------------------------------------------------------------------
B|--------------------------------------------------------------------------------------------------
G|--0-----2-----3--2--0--2--------------3--2--0-----3--2--0-----------------------------------2--3--
D|-----0-----0--------------0--3--2--0-----------0--------------------3--0--0--0--0--2--3--0--------
A|-----------------------------------------------------------0--2--3--------------------------------
E|--------------------------------------------------------------------------------------------------



E|--------------------------------
B|--------------------------------
G|-----3--2-----------------------
D|--0--------3--2--0-----0--------
A|--------------------4-----------
E|--------------------------------
http://www.guitartabcreator.com
Guitar Tab Creator is intended to store guitar tab created through the tool. It currently does not support in-line text editing. Any text you place in here will be lost. If you need to comment on your tab, please use the "Tab Notes" section located below.