SEVEN NATION ARMY SOLO

(/) Slide Up  (\) Slide Down  (h) Hammer On  (p) Pull Off  (b) Bend (r) Release (v) Vibrato


E|--------------------------
B|--------------------------
G|--------------------------
D|--------------------------
A|--7--7--10--10--7--10--9--
E|--------------------------



E|----------------------------------
B|----------------------------------
G|----------------------------------
D|----------------------------------
A|--7--7--10--10--7--10--12--10--9--
E|----------------------------------



E|--------------------------
B|--------------------------
G|--------------------------
D|--------------------------
A|--7--7--10--10--7--10--9--
E|--------------------------



E|------------------------------
B|------------------------------
G|------------------------------
D|------------------------------
A|--7--7--10--7--5--3--5--3--2--
E|------------------------------
http://www.guitartabcreator.com
Guitar Tab Creator is intended to store guitar tab created through the tool. It currently does not support in-line text editing. Any text you place in here will be lost. If you need to comment on your tab, please use the "Tab Notes" section located below.