Slow Blues Impro

(/) Slide Up  (\) Slide Down  (h) Hammer On  (p) Pull Off  (b) Bend (r) Release (v) Vibrato

E|-------------------------12b15--12--10--------------------------------
B|------10--12b14--10--10-----------------13--10------10--12b14--10-----
G|--11--------------------------------------------11--------------------
D|----------------------------------------------------------------------
A|----------------------------------------------------------------------
E|----------------------------------------------------------------------



E|---------------------------12/14------12------------------------5--8--5--------------8--10/12--10--
B|--------8--10b13--8h10--8---------14-----------------7-------5-----------8--5--8/10----------------
G|--7/10-----------------------------------------5--7-----7b9----------------------------------------
D|------------------------------------------5/7------------------------------------------------------
A|---------------------------------------------------------------------------------------------------
E|---------------------------------------------------------------------------------------------------
http://www.guitartabcreator.com
Guitar Tab Creator is intended to store guitar tab created through the tool. It currently does not support in-line text editing. Any text you place in here will be lost. If you need to comment on your tab, please use the "Tab Notes" section located below.