Tab 2


E|-----------0------------------------0---------------2--------2--2h3p2-----2--
B|--2-----------0h2p0-----0--0-----------0h2p0-----0--3-----3------------3-----
G|--2-----2------------2-----1-----1------------1--------2---------------------
D|-----2------------------------2---------------------0------------------------
A|--0------------------------2-------------------------------------------------
E|-----------------------------------------------------------------------------



E|-----------0-----------0-----------0--0h2p0-----0-----------0--0h2p0-----0--
B|--2-----------0-----------2------------------2-----0------------------2-----
G|--2-----2-----1-----1-----2-----2------------------1-----1------------------
D|-----2-----------2-----------2------------------------2---------------------
A|--0-----------2-----------0------------------------2------------------------
E|----------------------------------------------------------------------------



E|--2--------2--2h3p2-----2-----------0-----------0--2-----3p2-----2-------------------
B|--3-----3------------3-----2-----------0-----------3--3-------3-----2-----3p2-----2--
G|-----2---------------------2-----2-----1-----1----------------------2--2-------2-----
D|--0---------------------------2-----------2--------0---------------------------------
A|---------------------------0-----------2----------------------------0----------------
E|-------------------------------------------------------------------------------------



E|-------------------------
B|--0-----2--3p2-----0-----
G|--1-------------1-----2--
D|-----2-------------------
A|--2-------------------0--
E|-------------------------
Guitar Tab Creator is intended to store guitar tab created through the tool. It currently does not support in-line text editing. Any text you place in here will be lost. If you need to comment on your tab, please use the "Tab Notes" section located below.