Tab 1


E|--3--------3--------2--------2--------3--------3--------3--------3--------
B|--3-----3-----3-----3-----3-----3-----3-----3-----3-----3-----3-----3-----
G|-----0-----------0-----2-----------2-----0-----------0-----0-----------0--
D|--------------------------------------------------------------------------
A|--------------------0-----------------3-----------------------------------
E|--3-----------------------------------------------------3-----------------



E|--3--------3--------2--------2--------2--------2--------3--------3--------
B|--3-----3-----3-----3-----3-----3-----3-----3-----3-----3-----3-----3-----
G|-----0-----------0-----2-----------2-----4-----------4-----0-----------0--
D|--------------------------------------------------------------------------
A|--------------------0-----------------2-----------------3-----------------
E|--3-----------------------------------------------------------------------
Guitar Tab Creator is intended to store guitar tab created through the tool. It currently does not support in-line text editing. Any text you place in here will be lost. If you need to comment on your tab, please use the "Tab Notes" section located below.