The Truth (L.Guitar Solo) by Genesis Rosario

(/) Slide Up  (\) Slide Down  (h) Hammer On  (p) Pull Off  (b) Bend (r) Release (v) Vibrato

E|--------------------------------------------------------------------------------------------
B|--------------------------------------------------------12--13--15--13--12--12h13-12--------
G|-12h14-14-12-12h14-14-12-12h14--12h14-14-12-12h14-14-12------------------------------14v----
D|--------------------------------------------------------------------------------------------
A|--------------------------------------------------------------------------------------------
E|--------------------------------------------------------------------------------------------



E|-------------------------
B|--15--13--12--12h13------
G|---------------------14v-
D|-------------------------
A|-------------------------
E|-------------------------



E|-----------------------------------------------------------------------------------------
B|-------------------------12-13-------------------------15-13-12h13-12-10-10h12-10--------
G|-12h14-14-12-12h14-14-12-------12h14-14-12-12h14-14-12----------------------------9-11---
D|-----------------------------------------------------------------------------------------
A|-----------------------------------------------------------------------------------------
E|-----------------------------------------------------------------------------------------



E|------------------------------------------------------
B|----------------------------------12--12--12--12--13--
G|--12--12--12--12--14--14--14--14----------------------
D|------------------------------------------------------
A|------------------------------------------------------
E|------------------------------------------------------
http://www.guitartabcreator.com
Guitar Tab Creator is intended to store guitar tab created through the tool. It currently does not support in-line text editing. Any text you place in here will be lost. If you need to comment on your tab, please use the "Tab Notes" section located below.