I need a dollar

(/) Slide Up  (\) Slide Down  (h) Hammer On  (p) Pull Off  (b) Bend (r) Release (v) Vibrato


E|--------------------------------------------------------------------------------------------------
B|--------------------------------------------------------------------------------------------------
G|-----------------------------4----------4-------4-----8---------------4----------4-------4--------
D|------------------------4h6-----4--4h6-----4h6-----6--8----------4h6-----4--4h6-----4h6-----6--4--
A|--4h6------------------------------------------------------------------------------------------4--
E|-------2/4----------------------------------------------------------------------------------------



E|--------------------------------------------------------------------------------------------------
B|-----------------------------------------9------7-------------------------------------------------
G|-------4----------4-------4-----4--------8------6------6------6--6/8------------------------------
D|--4h6-----4--4h6-----4h6-----6-----------6------4------6------6--6-8------------------------------
A|-----------------------------------4--6----------------4------4--4-6------------------------------
E|--------------------------------------------------------------------------------------------------



E|-------------------------------------------------------------------------------------------------
B|-------------------------------------------------------------------------------------------------
G|-------------------------------------------------------------------------------------------------
D|--------------------------6--6--6--6------6--6--8--------------------------6--6--6--6------------
A|--6--6--6--6--4--4--4--4--4--4--4--4------4--4--6--6--6--6--6--4--4--4--4--4--4--4--4------------
E|--4--4--4--4--2--2--2--2-----2---------------------4--4--4--4--2--2--2--2------------------------
http://www.guitartabcreator.com
Guitar Tab Creator is intended to store guitar tab created through the tool. It currently does not support in-line text editing. Any text you place in here will be lost. If you need to comment on your tab, please use the "Tab Notes" section located below.