Blues Scale Exercise key of A

(/) Slide Up  (\) Slide Down  (h) Hammer On  (p) Pull Off  (b) Bend (r) Release (v) Vibrato


E|--------------------------------------5--8-----
B|--------------------------------5--8-----------
G|-----------------------5--7--8-----------------
D|-----------------5--7--------------------------
A|--------5--6--7--------------------------------
E|--5--8-----------------------------------------



E|--10--8------------------------------------------
B|---------10--8-----------------------------------
G|----------------9--8--7--------------------------
D|-------------------------10--7----------------7--
A|--------------------------------10--7------------
E|---------------------------------------10--8-----



E|--12--11--10------------------------------------------------
B|--------------13--10----------------------------------------
G|----------------------12--9---------------------------------
D|-----------------------------12--10-------------------------
A|-------------------------------------12--10-----------------
E|---------------------------------------------12--11--10--8--
http://www.guitartabcreator.com
Guitar Tab Creator is intended to store guitar tab created through the tool. It currently does not support in-line text editing. Any text you place in here will be lost. If you need to comment on your tab, please use the "Tab Notes" section located below.