Lullaby

(/) Slide Up  (\) Slide Down  (h) Hammer On  (p) Pull Off  (b) Bend (r) Release (v) Vibrato

E|------------------------------5--3--2--------------------------------------------------
B|--3--3--3------------5--5--3-----------------------------------------------------------
G|-----------0h2p0-----------------------------------------------------------------------
D|------------------0--5--5--5-----------2--2--2--2--4--4--4--4--6--6--6--6--4--4--4--4--
A|--3--3--3------------------------------2--2--2--2--4--4--4--4--6--6--6--6--4--4--4--4--
E|---------------------------------------0--0--0--0--2--2--2--2--4--4--4--4--2--2--2--2--



E|----------------------5--3--5--2---------------------------
B|----------------------------------3h5p3-----------3--3--3--
G|----------------2--4---------------------4--2--4-----------
D|-------0--2--4---------------------------------------------
A|--0h2---------------------------------------------3--3--3--
E|-----------------------------------------------------------
http://www.guitartabcreator.com
Guitar Tab Creator is intended to store guitar tab created through the tool. It currently does not support in-line text editing. Any text you place in here will be lost. If you need to comment on your tab, please use the "Tab Notes" section located below.