The Last Time I Said Goodbye I Didn't Like So I Thought I Would Do It Right This Time

(/) Slide Up  (\) Slide Down  (h) Hammer On  (p) Pull Off  (b) Bend (r) Release (v) Vibrato

E|--0--0--0--0--0--0--0--0--0--0--0--0--0--0--0--0--0--0--0--0--
B|--0--0--0--0--0--0--0--0--0--0--0--0--0--0--0--0--0--0--0--0--
G|--9--9--9--9--9--9--9--9--4--4--4--4--2--2--2--2--9--9--9--9--
D|--9--9--9--9--9--9--9--9--4--4--4--4--2--2--2--2--9--9--9--9--
A|--7--7--7--7--7--7--7--7--2--2--2--2--0--0--0--0--7--7--7--7--
E|--------------------------------------------------------------



E|--------------------------------------
B|--------------------------------------
G|--------5--------5--------5--------5--
D|-----3--------3--------3--------3-----
A|--3--------1--------0--------1--------
E|--------------------------------------



E|--------------------------------------------------------------------------------------------------
B|--------------------------------------------------------------------------------------------------
G|--------9-----------9-----------9-----------9-----------9-----------9-----------9-----------9-----
D|-----9-----9-----9-----9-----9-----9-----9-----9-----9-----9-----9-----9-----9-----9-----9-----9--
A|--7-----------6-----------------------------------0-----------0-----------6-----------6-----------
E|--------------------------9-----------7-----------------------------------------------------------



E|------12------12------14------14------11------11------12------12------12------12---------
B|--12------12------12------12------12------12------12------12------12------12------12-----
G|-----------------------------------------------------------------------------------------
D|-----------------------------------------------------------------------------------------
A|-----------------------------------------------------------------------------------------
E|-----------------------------------------------------------------------------------------
http://www.guitartabcreator.com
Guitar Tab Creator is intended to store guitar tab created through the tool. It currently does not support in-line text editing. Any text you place in here will be lost. If you need to comment on your tab, please use the "Tab Notes" section located below.