song no. 1

(/) Slide Up  (\) Slide Down  (h) Hammer On  (p) Pull Off  (b) Bend (r) Release (v) Vibrato

E|----------------------|----------------------|----------------------|--------------------------
B|----------------------|----------------------|----------------------|--------------------------
G|----------------------|----------------------|----------------------|--------------------------
D|-------------------8--|-------------------6--|-------------------8--|--------------------4-----
A|-------6h8p6-------8--|-------6h8p6-------6--|-------6h8p6-------8--|--------6h8p6-------4-----
E|--6h9---------9h6--6--|--6h9---------9p4--4--|--6h9---------9h6--6--|--6--9---------9p2--2-----




E|--------------|--------------|--------------|--------------|--
B|--------------|--------------|--------------|--------------|--
G|--------------|--------------|--------------|--------------|--
D|--6h8p6-------|--------------|--6h8p6-------|--------------|--
A|---------8p6--|--6h8p6-------|---------8p6--|--6h8p6-------|--
E|--------------|---------9p6--|--------------|---------9p6--|--




E|-----------------------|-----------------------|-----------------------|--------------------
B|-----------------------|-----------------------|-----------------------|--------------------
G|-----------------------|-----------------------|-----------------------|--------------------
D|--8--8--8--8--8--8--8--|--6--6--6--6--6--6--6--|--4--4--4--4--4--4--4--|--4--4--6--6--6--6--
A|--8--8--8--8--8--8--8--|--6--6--6--6--6--6--6--|--4--4--4--4--4--4--4--|--4--4--6--6--6--6--
E|--6--6--6--6--6--6--6--|--4--4--4--4--4--4--4--|--2--2--2--2--2--2--2--|--2--2--4--4--4--4--




E|----------------------------|----------------------------|----------------------------
B|----------------------------|----------------------------|----------------------------
G|----------------------------|----------------------------|----------------------------
D|--8--8--8-------------------|--6--6--6-------------------|--4--4--4-------------------
A|--8--8--8-------6h8p6-------|--6--6--6-------4h6p4-------|--4--4--4-------2h4p2-------
E|--6--6--6--6h9---------9p6--|--4--4--4--4h7---------7p4--|--2--2--2--2h5---------5p2--




E|----------------------------
B|----------------------------
G|----------------------------
D|--6--6--6-------------------
A|--6--6--6-------4h6p4-------
E|--4--4--4--4h7---------7p4--




E|----------------|----------------|--------------------------|--------------
B|----------------|----------------|--------------------------|--------------
G|----------------|----------------|--------------------------|--------------
D|-----8p6-----6--|----------------|--------4-----------6-----|--------8--8--
A|----------8-----|-----6p4--6/8v--|-----4-----4-----6-----6--|-----8--------
E|--6-------------|--4-------------|--2-----------4-----------|--6-----------




E|-----------------------------------------|-------------------------------------|--
B|--11--11--11--11--13b14--13--11----------|--11--13--13b14--13--11--------------|--
G|---------------------------------13--13--|-------------------------13--11--11--|--
D|-----------------------------------------|-------------------------------------|--
A|-----------------------------------------|-------------------------------------|--
E|-----------------------------------------|-------------------------------------|--




E|---------------------------------|----------------------------|--
B|--11--13--13b14--11--------------|------------------------11--|--
G|---------------------13--10--10--|--10--10h11--11h13--13------|--
D|---------------------------------|----------------------------|--
A|---------------------------------|----------------------------|--
E|---------------------------------|----------------------------|--
http://www.guitartabcreator.com
Guitar Tab Creator is intended to store guitar tab created through the tool. It currently does not support in-line text editing. Any text you place in here will be lost. If you need to comment on your tab, please use the "Tab Notes" section located below.