soul

(/) Slide Up  (\) Slide Down  (h) Hammer On  (p) Pull Off  (b) Bend (r) Release (v) Vibrato


E|--------------------------------------------------------------------------
B|--------------12----------------------12----------------------12----------
G|----------12------12--------------12------12--------------12------12------
D|------11--------------11------11--------------11------11--------------11--
A|--------------------------------------------------------------------------
E|--12----------------------12----------------------12----------------------



E|--------------------------------------------------------------------------------------
B|--------------12--------------------12-------------------12-------------------12------
G|----------12------11------------11------11-----------11------11-----------11------11--
D|------11--------------12-----9--------------9-----9--------------9-----9--------------
A|--------------------------------------------------------------------------------------
E|--12----------------------7--------------------7--------------------7-----------------



E|---------------------------------------------------------------------------------------
B|---------------12----------------------12----------------------12----------------------
G|-----------10------11--------------12------12--------------12------12--------------12--
D|--9-----9--------------11------11--------------11------11--------------11------11------
A|---------------------------------------------------------------------------------------
E|-----7---------------------12----------------------12----------------------12----------



E|--------------------------------------
B|--12----------------------12----------
G|------12--------------12------11------
D|----------11------11--------------12-- repeat
A|--------------------------------------
E|--------------12----------------------
http://www.guitartabcreator.com
Guitar Tab Creator is intended to store guitar tab created through the tool. It currently does not support in-line text editing. Any text you place in here will be lost. If you need to comment on your tab, please use the "Tab Notes" section located below.