Why

(/) Slide Up  (\) Slide Down  (h) Hammer On  (p) Pull Off  (b) Bend (r) Release (v) Vibrato

E|--------------------------------
B|--------------------------------
G|-----------------4--------------
D|--4--------------4--4--3--2--0--
A|--4--4--3--2--0--2--------------
E|--2-----------------------------



E|--------------------------------------------------------------------------------
B|--------------------------------------------------------------------------------
G|--7--7--7--7--7--7--7--7--9--9--9--9--9--9--9--9--------------------------------
D|--7--7--7--7--7--7--7--7--9--9--9--9--9--9--9--9--9--------------9--------------
A|--5--5--5--5--5--5--5--5--7--7--7--7--7--7--7--7--9--9--8--7--0--9--9--8--7--0--
E|--------------------------------------------------7--------------7--------------



E|--------------------------------------------------------------------------------------------------
B|--------------------------------------------------------------------------------------------------
G|--------------------------------------------------4--4--4--4--4--4--4--4--4--4--4--4--4--4--4--4--
D|--4--4--4--4--4--4--4--4--4--4--4--4--4--4--4--4--4--4--4--4--4--4--4--4--4--4--4--4--4--4--4--4--
A|--4--4--4--4--4--4--4--4--4--4--4--4--4--4--4--4--2--2--2--2--2--2--2--2--2--2--2--2--2--2--2--2--
E|--2--2--2--2--2--2--2--2--2--2--2--2--2--2--2--2--------------------------------------------------
http://www.guitartabcreator.com
Guitar Tab Creator is intended to store guitar tab created through the tool. It currently does not support in-line text editing. Any text you place in here will be lost. If you need to comment on your tab, please use the "Tab Notes" section located below.