In the morning

(/) Slide Up  (\) Slide Down  (h) Hammer On  (p) Pull Off  (b) Bend (r) Release (v) Vibrato


E|---------------------------------
B|---------------------------------
G|---------------------------------
D|-----12------11------12------11--
A|--9--10--12--9---10--10--12--9---
E|--7------10------8-------10------



E|-------------------------------------------------------------------------
B|-------------------------------------------------------------------------
G|-------------------------------------------------------------------------
D|-9-9-9-9-9-9-9-9-9-9-9-9-12-12-12-12-9-9-9-9-9-9-9-9-9-9-9-9-12-12-12-12-
A|-9-9-9-9-9-9-9-9-9-9-9-9-12-12-12-12-9-9-9-9-9-9-9-9-9-9-9-9-12-12-12-12-
E|-7-7-7-7-7-7-7-7-7-7-7-7-10-10-10-10-7-7-7-7-7-7-7-7-7-7-7-7-10-10-10-10-



E|-------------------------------------------------------------------------------------
B|-------------------------------------------------------------------------------------
G|-------------------------------------12-12-12-12-12-12-12-12-11-11-11-11-11-11-11-11-
D|-9-9-9-9-9-9-9-9-9-9-9-9-12-12-12-12-12-12-12-12-12-12-12-12-11-11-11-11-11-11-11-11-
A|-9-9-9-9-9-9-9-9-9-9-9-9-12-12-12-12-10-10-10-10-10-10-10-10-9--9--9--9--9--9--9--9--
E|-7-7-7-7-7-7-7-7-7-7-7-7-10-10-10-10-------------------------------------------------



E|------------------
B|------------------
G|------------------
D|-----9-----10-----
A|-----9-----10-----
E|-----7-----8------
http://www.guitartabcreator.com
Guitar Tab Creator is intended to store guitar tab created through the tool. It currently does not support in-line text editing. Any text you place in here will be lost. If you need to comment on your tab, please use the "Tab Notes" section located below.