Monsters

(/) Slide Up  (\) Slide Down  (h) Hammer On  (p) Pull Off  (b) Bend (r) Release (v) Vibrato


E|--5--5--x--x--5--5--x--x--8--8--x--x--7--7--
B|--5--5--x--x--5--5--x--x--5--5--x--x--5--5--
G|--5--5--x--x--5--5--x--x--5--5--x--x--5--5--
D|--7--7--x--x--7--7--x--x--5--5--x--x--5--5--
A|--------------------------------------------
E|--------------------------------------------



E|--12--12--12--12--12--12--12--12--12--12--12--12--12--10--10--10--
B|--10--10--10--10--10--10--10--10--10--10--10--10--10--9---9---9---
G|--10--10--10--10--10--10--10--10--10--10--10--10--10--9---9---9---
D|--10--10--10--10--10--10--10--10--10--10--10--10--10--9---9---9---
A|------------------------------------------------------------------
E|------------------------------------------------------------------
http://www.guitartabcreator.com
Guitar Tab Creator is intended to store guitar tab created through the tool. It currently does not support in-line text editing. Any text you place in here will be lost. If you need to comment on your tab, please use the "Tab Notes" section located below.