little marry

(/) Slide Up  (\) Slide Down  (h) Hammer On  (p) Pull Off  (b) Bend (r) Release (v) Vibrato


E|--3--3--x--5--5--x--8--8--x--8--8--x--8---8---x--8--8--x--6--6--
B|--4--4--x--5--5--x--8--8--x--8--8--x--9---9---x--8--8--x--8--8--
G|--5--5--x--5--5--x--8--8--x--8--8--x--10--10-----8--8--x--8--8--
D|----------------------------------------------------------------
A|----------------------------------------------------------------
E|----------------------------------------------------------------



E|--1--1--x--1--1--x--1--1--x--1--x--3--3--x--3--3--x--3--3--x--3--3--6/8--6--
B|--1--1--x--1--1--x--1--1--x--1--x--3--3--x--3--3--x--3--3--x--3-------------
G|--1--1--x--1--1--x--1--1--x--1--x--3--3--x--3--3--x--3--3--x--3-------------
D|----------------------------------------------------------------------------
A|----------------------------------------------------------------------------
E|----------------------------------------------------------------------------
http://www.guitartabcreator.com
Guitar Tab Creator is intended to store guitar tab created through the tool. It currently does not support in-line text editing. Any text you place in here will be lost. If you need to comment on your tab, please use the "Tab Notes" section located below.