Dark Night

(/) Slide Up  (\) Slide Down  (h) Hammer On  (p) Pull Off  (b) Bend (r) Release (v) Vibrato


E|-------------------------------------------------------------------
B|-------------------------------------------------------------------
G|-------------------------------------------------------------------
D|-------------------------------------------------------------------
A|-----6-6-5-5-3-3-----6-6-5-5-3-3-----6-6-5-5-3-3-----6-6-5-5-3-3---
E|-5-5-------------5-5-------------5-5-------------5-5---------------



E|---------------------------------------------------------------------
B|---------------------------------------------------------------------
G|---------------------------------------------------------------------
D|---------------------------------------------------------------------
A|-----6-6-5-5-10-10-----6-6-5-5-10-10-----6-6-5-5-3-3-----6-6-5-5-3-3-
E|-5-5---------------5-5---------------5-5-------------5-5-------------



E|-------
B|-------
G|---8-7-
D|-7-8-7-
A|-7-6-5-
E|-5-----



E|---------
B|---------
G|-----7-7-
D|-7-7-7-7-
A|-7-7-5-5-
E|-5-5-----
http://www.guitartabcreator.com
Guitar Tab Creator is intended to store guitar tab created through the tool. It currently does not support in-line text editing. Any text you place in here will be lost. If you need to comment on your tab, please use the "Tab Notes" section located below.