All of my friends

(/) Slide Up  (\) Slide Down  (h) Hammer On  (p) Pull Off  (b) Bend (r) Release (v) Vibrato

E|-----------------------------------------
B|-----------------------------------------
G|-----------------------------------------
D|-----------------------------------------
A|--------8--8--7--7--------------5--5-----
E|--5--5--------------8--8--1--1-----------



E|--5--5--5--5--5--5--5--5--5--5--5--
B|--5--5--5--5--5--5--6--6--6--6--6--
G|--5--5--5--5--5--5--7--7--5--5--5--
D|--7--7--7--5--5--5--x--x--x--x--x--
A|-----------------------------------
E|-----------------------------------



E|--------------------------------------------------------------------------------------------------
B|--------------------------------------------------------------------------------------------------
G|----------------------------------------10--10--------9--9--------------------10--10--------9--9--
D|--7--7--x--x--x--x--x--x--10--10--x--x--10--10--x--x--9--9--x--x--x--x--x--x--10--10--x--x--9--9--
A|--7--7--x--x--x--x--x--x--10--10--x--x--8---8---x--x--7--7--x--x--x--x--x--x--8---8---x--x--7--7--
E|--5--5--x--x--x--x--x--x--8---8---x--x----------x--x--------x--x--x--x--x--x----------x--x--------
http://www.guitartabcreator.com
Guitar Tab Creator is intended to store guitar tab created through the tool. It currently does not support in-line text editing. Any text you place in here will be lost. If you need to comment on your tab, please use the "Tab Notes" section located below.