Alive for the new sun

(/) Slide Up  (\) Slide Down  (h) Hammer On  (p) Pull Off  (b) Bend (r) Release (v) Vibrato


E|-----------
B|-----------
G|--1--1--1--
D|--2--2--2--
A|--2--2--2--
E|-----------



E|--------------------------------------
B|--------------------------------------
G|--------------------------------------
D|--9--9--x--9--9--9--9--7--7--7--7--7--
A|--7--7--x--7--7--7--7--5--5--5--5--5--
E|--------------------------------------



E|----------------------------------------------------------------------
B|----------------------------------------------------------------------
G|----------------------------------------------------------------------
D|-12-12-12-12-12-12-12-12-14-14-14-14-14-14-14-9-9-x-9-9-9-9-7-7-7-7-7-
A|-10-10-10-10-10-10-10-10-12-12-12-12-12-12-12-7-7-x-7-7-7-7-5-5-5-5-5-
E|----------------------------------------------------------------------
http://www.guitartabcreator.com
Guitar Tab Creator is intended to store guitar tab created through the tool. It currently does not support in-line text editing. Any text you place in here will be lost. If you need to comment on your tab, please use the "Tab Notes" section located below.