Gothic 3 - Vista Point (one guitar)

(/) Slide Up  (\) Slide Down  (h) Hammer On  (p) Pull Off  (b) Bend (r) Release (v) Vibrato
E|-----------------------------------------------------7\9--7--------------------------------------------------------------
B|--------5-----4-----5-----------5-----4-----5--4--5----------5--4--5-----------------------------------------------------
G|-------------------------------------------------------------------------6--8--8\9--8h9p8--6--4--------------------------
D|-----6-----6-----6-----6-----6-----6-----6----------------------------7--------------------------------------------------
A|--4-----------------------4-----------------------4----------------0-----------------------------------------------------
E|-------------------------------------------------------------------------------------------------------------------------



E|-----7\9--7----------------------------------------------------
B|--5----------5--4--5--7--7\9--7--7h9p7--5--4--2--4\5--4--0--2--
G|---------------------------------------------------------------
D|---------------------------------------------------------------
A|--4----------------0--------------------------0-------2-----0--
E|---------------------------------------------------------------



E|----------------------------------------
B|--2\5--4--5--7\9--7--5--5--4p2--4--4\5--
G|----------------------------------------
D|----------------------------------------
A|----------0-------------2---------------
E|----------------------------------------
http://www.guitartabcreator.com
Guitar Tab Creator is intended to store guitar tab created through the tool. It currently does not support in-line text editing. Any text you place in here will be lost. If you need to comment on your tab, please use the "Tab Notes" section located below.