Ugly Shadow

(/) Slide Up  (\) Slide Down  (h) Hammer On  (p) Pull Off  (b) Bend (r) Release (v) Vibrato

Stave 1:

E|--------------------------------------------------------------------------
B|--------------------------------------------------------------------------
G|--------------------------------------------------------------------------
D|-----------------------3--6-----3--6-----4--5--3-----------------------6--
A|-----3--6-----3--6--4--------4--------6-----------6--4--3--------3--6-----
E|--4--------4-----------------------------------------------6--4-----------

Stave 2:

E|--------------------------------------------------------------
B|--------------------------------------------------------------
G|--------------------------------------3--6--5--3--------------
D|-----------------------3--6--------5--------------6--4--5--6--
A|-----3--6-----3--6--4--------4--6-----------------------------
E|--4--------4--------------------------------------------------

Stave 3:

E|--------------------------------------------------------------------
B|-----------------------------------------------------------4--------
G|-----------------------------------------------3--6--4--5-----4--5--
D|-----------------------3--------------------5-----------------------
A|-----3--6-----3--6--4-----4-----3--4--6--4--------------------------
E|--4--------4-----------------6--------------------------------------

Stave 4:

E|--------------------------------------------------------------------------
B|-----------------------------------------------------------4--------------
G|--------1--------------------------------------3--6--4--5-----6--5--3-----
D|-----------2--3-----------------------5--3--4--------------------------6--
A|-----3-----------3--4-----3--4--5--6--------------------------------------
E|--1--------------------6--------------------------------------------------

http://www.guitartabcreator.com
Guitar Tab Creator is intended to store guitar tab created through the tool. It currently does not support in-line text editing. Any text you place in here will be lost. If you need to comment on your tab, please use the "Tab Notes" section located below.