I dreamed a dream

(/) Slide Up  (\) Slide Down  (h) Hammer On  (p) Pull Off  (b) Bend (r) Release (v) Vibrato
E|--------------|-------------|------------------2--|--0--------0--|--------------|-------------|--
B|--3--------3--|--3----------|----3----------3-----|--------3-----|--3-----------|--3----------|--
G|--2-----2-----|--2-----2----|----4-------2--------|-----2--------|--0--------4--|--4----------|--
D|--0--4--------|--5--4-------|---------4-----------|--------------|--------5-----|--5----------|--
A|--------------|-------------|----2----------------|--------------|-----5--------|--0-----4----|--
E|--------------|-------------|---------------------|--2-----------|--3-----------|--5--0-------|--



E|--------------|-----------0--|--2-----------|-------------|--
B|-----3--3--3--|--3--2--3-----|-----------3--|--2-----3----|--
G|--------------|--------------|--------------|-------------|--
D|--0-----------|--------------|--0-----------|-------------|--
A|--0-----------|--0-----------|--2-----2-----|--0----------|--
E|--2-----------|--2-----------|--2--2--------|-----2-------|--



E|--------------|--------0--2--|------------3--|--2----0----|--
B|-----3--3--3--|--3--3--------|--0--3---------|--2---------|--
G|--4-----------|--2-----------|--0------------|------------|--
D|--------------|--------------|---------------|------------|--
A|--------------|--------------|---------------|--0---------|--
E|--0-----------|--2-----------|--0------------|------------|--



E|-----2--2--2--|-----0--2--3--|--5-----------|-----------|--
B|--3-----------|--3-----------|--3--------3--|--3--------|--
G|--------------|--2-----------|--------2-----|--2-----2--|--
D|--------------|--------------|-----4--------|--5--4-----|--
A|--0-----------|--4-----------|--2-----------|-----------|--
E|--------------|--------------|--------------|-----------|--
http://www.guitartabcreator.com
Guitar Tab Creator is intended to store guitar tab created through the tool. It currently does not support in-line text editing. Any text you place in here will be lost. If you need to comment on your tab, please use the "Tab Notes" section located below.