Robby

(/) Slide Up  (\) Slide Down  (h) Hammer On  (p) Pull Off  (b) Bend (r) Release (v) Vibrato


E|-------------------------------------------------------------------------
B|-------------------------14----------------------------14h15p14----14----
G|-------14-15-------14-15----15-------14-15-------14h15----------15----15-
D|-------------------------------------------------------------------------
A|-------------------------------------------------------------------------
E|-0-0-0-------0-0-0-------------0-0-0-------0-0-0-------------------------



E|-----------------------------------------------------------
B|-------------------------14--------------------------------
G|-------14-15-------14-15----15-------14-15-------14-15-14v-
D|-----------------------------------------------------------
A|-----------------------------------------------------------
E|-0-0-0-------0-0-0-------------0-0-0-------0-0-0-----------



E|-
B|-
G|-
D|-
A|-
E|-
http://www.guitartabcreator.com
Guitar Tab Creator is intended to store guitar tab created through the tool. It currently does not support in-line text editing. Any text you place in here will be lost. If you need to comment on your tab, please use the "Tab Notes" section located below.