One Summer's Day

(/) Slide Up  (\) Slide Down  (h) Hammer On  (p) Pull Off  (b) Bend (r) Release (v) Vibrato
E|--0-------------3----0-----------|----------------3---------------------|-----0--0--0--0-----
B|-----------3------------------3--|--3--------1---------3--------1----0--|-----1--------------
G|--------2---------------------0--|--------0------------------0--0-------|-----2--------------
D|-----3---------------------1-----|-----2------------------2-------------|--3-----------------
A|------------------------2--------|--3-----------------------------------|--------------------
E|--1------------------3-----------|---------------------3----------------|--------------------



E|-----0--5--0--------------|-----------------------3--------------|--
B|--3-----------3--3-----3--|-----3--3--3--3--1--3-----3--1--0--1--|--
G|--------------0--0-----0--|--------1--------------------------0--|--
D|--------------------0-----|--------------------------------------|--
A|--------------------------|--3-----------------------3-----------|--
E|-----------3--------------|--------------------------------------|--



E|---------------------------------------------------------------------------3-----|--
B|-----0--1--1--1--1--1--1-------0--1--1--1--1--0--1-------0--1--1--1--1--1-----1--|--
G|--2-----------2-------------2-------------------------2-----2--------------------|--
D|--------0-------------------------2----------------------------------------------|--
A|------------------------------------------------------------3--------------------|--
E|---------------------------------------------------------------------------------|--



E|--------------|--0--1--3--3--3--3--3--1--0--------0-----------|--0--1--3--3--3--3--3--1-----
B|--3--------3--|--------0-----0-----0--------3--3--------1-----|--------0-----0-----0--------
G|--------0-----|--------0-----0-----0--------------------2--3--|--------0-----0-----0--------
D|-----0--------|--------------------------------------2-----3--|-----------------------------
A|--------------|--3-----------------------------0--------------|--3--------------------------
E|--3-----------|--------1-----------1-----------------------3--|--------1-----------1--------



E|--0--------0----------------|--------0-----------------------------|-----
B|-----3--3--------1----------|--1--3--------------1--------1--1--0--|-----
G|-----------------2-------2--|-----------------2-----2-----2--2--2--|-----
D|--------------2-------2-----|--------------0-----------0--3-----3--|-----
A|--------0-------------------|-----------0--------------------------|-----
E|----------------------------|--------2--------------------3-----3--|-----



E|--5--7--8--8--10--8--7-------0--3--5--5--3-----3--------|--3--3--3--1--1-----1--------1-----
B|--------------------------------------------6--------1--|--------1--------4--------1--------
G|--------0---------------0-------------------------0-----|-----------------------2-----------
D|-----------------------------------3-----------2--------|--------1-----------1--------------
A|--------5-----------------------------------------------|-----------------------------------
E|---------------------0----------------------------------|-----------------------------------



E|--3--------4--3-----|--5--7--8--8--10--8--7-------0--3--5--5--3-----3--------|--
B|-----4--3-----3-----|--------------------------------------------6--------1--|--
G|--------------4--4--|--------0---------------0-------------------------0-----|--
D|--------------3-----|-----------------------------------3-----------2--------|--
A|--------------3-----|--------5-----------------------------------------------|--
E|--3-----------3-----|---------------------0----------------------------------|--



E|--3--3--3--1--1-----------3--4--6--4--4--3--4-----3--4--6--|--8-------------------4--6--
B|--------1--------4--6-----------4-----------3--------------|---------9------------------
G|-----------------------5--------4--------------5-----------|------------10-----5--------
D|--------1-----------0--------------------------------------|-----10---------------------
A|--------------------------------4-----------3--------------|--8-------------6-----------
E|-----------------------------------------------------------|----------------------------



E|--8---------8-----8--7--8--10----------------|-----8--7--8-----
B|---------9-------------------------9---------|--8--------8-----
G|-----10------------------------10-----10--0--|-----------------
D|--0------------0-----------9-----------------|-----------------
A|---------------------------------------------|-----------------
E|---------------------------------------------|-----------8--8--
http://www.guitartabcreator.com
Guitar Tab Creator is intended to store guitar tab created through the tool. It currently does not support in-line text editing. Any text you place in here will be lost. If you need to comment on your tab, please use the "Tab Notes" section located below.