Meaning?

(/) Slide Up  (\) Slide Down  (h) Hammer On  (p) Pull Off  (b) Bend (r) Release (v) Vibrato
t: SS SS SS SS SS SS SS SS SS SS SS SS SS SS SS SS SS SS SS SS SS SS SS SS
E|------14----------14----------14------14----------14----------14------12----------12----------12--
B|----------12----------12------------------14----------14------------------13----------13----------
G|--12----------12----------12------14----------14----------14------14----------14----------14------
D|--------------------------------------------------------------------------------------------------
A|--------------------------------------------------------------------------------------------------
E|--------------------------------------------------------------------------------------------------



E|--12--
B|--12--
G|--12--
D|------
A|------
E|------



E|--2--2--------
B|--0--2--5--5--
G|--0--2--5--4--
D|--2--4--4--5--
A|--------0-----
E|-----------0--



E|-----------------------------------------------
B|-----------------------------------------------
G|-----------------------4--4--4-----------------
D|--------5--5--4--4--5-----------5--5--4--4--5--
A|-----------------------------------------------
E|--0--0-----------------------------------------



E|--------------------------------------------------
B|--------------------------------------------------
G|-----------------------4--4--4--------------------
D|--------5--5--4--4--5-----------5--5--------------
A|--------------------------------------7--7--7--7--
E|--2--2--------------------------------------------



E|--------------------------------------------------
B|--------------------------------------------------
G|-----------------------4--4--4--------------------
D|--------5--5--4--4--5-----------5--5--4--4--5--5--
A|--0--0--------------------------------------------
E|--------------------------------------------------



E|-----------------------------------------------
B|-----------------------------------------------
G|-----------------------------------------------
D|--------5--5--4--4--4--------------------------
A|-----------------------7--7--7--7--7--7--7--7--
E|--0--0-----------------------------------------
http://www.guitartabcreator.com
Guitar Tab Creator is intended to store guitar tab created through the tool. It currently does not support in-line text editing. Any text you place in here will be lost. If you need to comment on your tab, please use the "Tab Notes" section located below.