ZZ TOP La Grange style lick

(/) Slide Up  (\) Slide Down  (h) Hammer On  (p) Pull Off  (b) Bend (r) Release (v) Vibrato


E|----------8----------------------------------------------------------------------------------
B|--11b13v-----11r8--11r8------8---------------------------------------------------------------
G|-------------------------10-----10r8------10--8----------------------------------------------
D|--------------------------------------10---------10--8--10--------8--------------------------
A|------------------------------------------------------------8/10-----10\8--6--8--6-----------
E|------------------------------------------------------------------------------------8--6--8--



E|--------------------------------------
B|--------------------------------------
G|--------------------------------------
D|--------8-----------------8/10--8h10--
A|--8/10-----10\8--6--8--6--------------
E|--------------------------------------
http://www.guitartabcreator.com
Guitar Tab Creator is intended to store guitar tab created through the tool. It currently does not support in-line text editing. Any text you place in here will be lost. If you need to comment on your tab, please use the "Tab Notes" section located below.