ZZ TOP - Jesus Just Left Chicago - solo

(/) Slide Up  (\) Slide Down  (h) Hammer On  (p) Pull Off  (b) Bend (r) Release (v) Vibrato

E|--8------8------8------8-------------|----------------------|--8------8------8-------|--
B|--10b11--10b11--10b11--10b11v--------|----------------------|--10b11--10b11--10b11v--|--
G|----------------------------------3--|--5b7v--3v------------|------------------------|--
D|-------------------------------5-----|------------3v--------|------------------------|--
A|-------------------------------------|----------------------|------------------------|--
E|-------------------------------------|----------------6--3--|------------------------|--



E|------------------------------|--------3-------------------------------|--
B|----------------------6b8--6--|--6b8v-----6---------6b8--6--3h6r3h6r3--|--
G|--5b7--5b7--3v-----3----------|-----------5b7b5--3---------------------|--
D|----------------5-------------|----------------------------------------|--
A|------------------------------|----------------------------------------|--
E|------------------------------|----------------------------------------|--



E|-------------------------------------------|--8------8------8-------------------|--
B|----------------------------6--------------|--10b11--10b11--10b11v--------------|--
G|-----5r3-----5-----3--5b7v--5--3-----------|---------------------------3--5b7v--|--
D|--5-------5-----5--------------------------|------------------------5-----------|--
A|-------------------------------------1-----|------------------------------------|--
E|----------------------------------3-----3--|------------------------------------|--



E|------------------------|-----------------------------------|--3-------3--------3--------
B|--3--6------------------|-----------------------------------|----------------------------
G|--------5b7b5--3--5-----|--5b6b5r3--5----3-------0----------|----------------------------
D|---------------------5--|-------------------3---------------|-----0h3-----3--2-----2-----
A|------------------------|---------------------------0h1-----|----------------------------
E|------------------------|--------------------------------3--|----------------------------



E|-----3--|-----3-------3--------3--------3-------|--
B|--------|---------------------------------------|--
G|--------|---------------------------------------|--
D|--1-----|--------0h3-----3--2-----2--1----------|--
A|--------|----------------------------------1b2--|--
E|--------|--3------------------------------------|--



E|--
B|--
G|--
D|--
A|--
E|--
http://www.guitartabcreator.com
Guitar Tab Creator is intended to store guitar tab created through the tool. It currently does not support in-line text editing. Any text you place in here will be lost. If you need to comment on your tab, please use the "Tab Notes" section located below.