Stevie Ray Vaughan - Texas Flood - solo pg 2 of 2 of part one of two

(/) Slide Up  (\) Slide Down  (h) Hammer On  (p) Pull Off  (b) Bend (r) Release (v) Vibrato


E|-------------------3------------------15------15----------15-----------------|--
B|------------------------------------------15------18b20v------18-------------|--
G|--6\5r3-----3h5b6-----3v--5-----5/16------------------------------17\5--3b4--|--
D|---------5-------------------5-----------------------------------------------|--
A|-----------------------------------------------------------------------------|--
E|-----------------------------------------------------------------------------|--



E|---------------3--------3--6/8--------------------|--6b7--6b7b8--7b8--7b8--7b8--8b9--|--
B|------------------3--6----------8v--8v----8v--8v--|----------------------------------|--
G|----------5b7-------------------------------------|----------------------------------|--
D|--5r3---------------------------------------------|----------------------------------|--
A|--------------------------------------------------|----------------------------------|--
E|-------3------------------------------------------|----------------------------------|--



E|--8b9--8b10--8b10--8b10--8b10--8b10v--|--8b9--6--------------------6------------------|--
B|--------------------------------------|--8-------8v--8v----8v--8v-----8v--8v--8v--8v--|--
G|--------------------------------------|-----------------------------------------------|--
D|--------------------------------------|-----------------------------------------------|--
A|--------------------------------------|-----------------------------------------------|--
E|--------------------------------------|-----------------------------------------------|--



E|--6-----------6---------------|--|--
B|-----8v----8-----8-----6v--v--|--|--
G|--------------------7---------|--|--
D|------------------------------|--|--
A|------------------------------|--|--
E|------------------------------|--|--



E|--
B|--
G|--
D|--
A|--
E|--
http://www.guitartabcreator.com
Guitar Tab Creator is intended to store guitar tab created through the tool. It currently does not support in-line text editing. Any text you place in here will be lost. If you need to comment on your tab, please use the "Tab Notes" section located below.