Stevie Ray Vaughan - Texas Flood - solo part one of two

(/) Slide Up  (\) Slide Down  (h) Hammer On  (p) Pull Off  (b) Bend (r) Release (v) Vibrato


E|----------3----------6-----8b10--8b10r8----6--------------------|--6----------6b7--
B|-------3-----6/8v-------8---------------------8v--8v----8v--8v--|-----8v--8v-------
G|--5b6-----------------------------------------------------------|------------------
D|----------------------------------------------------------------|------------------
A|----------------------------------------------------------------|------------------
E|----------------------------------------------------------------|------------------



E|------------------6--8b10--8b10--|--|--8b10--6--------------6b7--13-9--|--
B|--8-----6v--8--8-----------------|--|-----------8--8--8--8-------13-9--|--
G|-----7---------------------------|--|----------------------------13\9--|--
D|---------------------------------|--|----------------------------------|--
A|---------------------------------|--|----------------------------------|--
E|---------------------------------|--|----------------------------------|--



E|--------6--8b10--8b10--6--------------------|--8b10--8b10v----8b10--8--6--|--
B|--8--8--------------------8v--8v----8v--8v--|-----------------------------|--
G|--------------------------------------------|-----------------------------|--
D|--------------------------------------------|-----------------------------|--
A|--------------------------------------------|-----------------------------|--
E|--------------------------------------------|-----------------------------|--



E|-----------6--7b8--8b9--8b9--8b10--|--8--6---------------6b7---------3--------------
B|--8--8--8--------------------------|--------8v--v--5--8-------8r6\3-----6r3---------
G|-----------------------------------|-----------------------------------------5b7r5--
D|-----------------------------------|------------------------------------------------
A|-----------------------------------|------------------------------------------------
E|-----------------------------------|------------------------------------------------



E|-------------3--|-----------------3----------3-----3-----3-----3--------|--
B|-------------3--|--------------3-----3--6b8-----3-----3-----3-----3--6--|--
G|-----3--5b7-----|--3v--v--5b6-------------------------------------------|--
D|--5-------------|-------------------------------------------------------|--
A|----------------|-------------------------------------------------------|--
E|----------------|-------------------------------------------------------|--



E|-------------------3------------------15------15----------15-----------------|--
B|------------------------------------------15------18b20v------18-------------|--
G|--6\5r3-----3h5b6-----3v--5-----5/16------------------------------17\5--3b4--|--
D|---------5-------------------5-----------------------------------------------|--
A|-----------------------------------------------------------------------------|--
E|-----------------------------------------------------------------------------|--



E|--
B|--
G|--
D|--
A|--
E|--
http://www.guitartabcreator.com
Guitar Tab Creator is intended to store guitar tab created through the tool. It currently does not support in-line text editing. Any text you place in here will be lost. If you need to comment on your tab, please use the "Tab Notes" section located below.