Stevie Ray Vaughan - Texas Flood solo lick

(/) Slide Up  (\) Slide Down  (h) Hammer On  (p) Pull Off  (b) Bend (r) Release (v) Vibrato


E|----------3-----3--5--3h4r3-----3--6b7--3----------------3------------------6--
B|-------3-----6--3------------6--3----------6--3-------3------------------------
G|--5b6--------------------------------------------5b7--------5b7b5r3--3h5/7-----
D|-------------------------------------------------------------------------------
A|-------------------------------------------------------------------------------
E|-------------------------------------------------------------------------------



E|------------|-----------------------------------------------------3-----------|--
B|------------|--6--------------------6--6----------6--6-5--3-------3-----------|--
G|--7\5r3-----|-----6\5r3-----3--5b7-----6\5--3--------6\5--3--5b7-----3--------|--
D|---------5--|------------5---------------------5------------------------5-----|--
A|------------|--------------------------------------------------------------5--|--
E|------------|-----------------------------------------------------------------|--



E|-------------------------------------------------------|---------------3-------
B|-------------------------------------------------------|------------3----------
G|-------------3--5--5v--3b4-----------------------------|---------5--------5b7--
D|-------5----------------------5--3---------------------|--5v-------------------
A|--5/7-----7-------------------------5--4--3h4r3--------|-----------------------
E|-------------------------------------------------6--3--|------3----------------



E|---------------------------------|---------------------------------|--|--
B|---------------------------------|---------------------------------|--|--
G|--5r3-----3v---------------------|--------------3v-----------------|--|--
D|-------5------5--3---------------|--------3--5------5--3-----------|--|--
A|--------------------5--4--3h4r3--|------------------------3--4--5--|--|--
E|---------------------------------|--6--3---------------------------|--|--



E|--
B|--
G|--
D|--
A|--
E|--
http://www.guitartabcreator.com
Guitar Tab Creator is intended to store guitar tab created through the tool. It currently does not support in-line text editing. Any text you place in here will be lost. If you need to comment on your tab, please use the "Tab Notes" section located below.